ISO-10303-21;
HEADER;
/* Generated by software containing ST-Developer
 * from STEP Tools, Inc. (www.steptools.com) 
 */
/* OPTION: using custom schema-name function */

FILE_DESCRIPTION(
/* description */ (''),
/* implementation_level */ '2;1');

FILE_NAME(
/* name */ 'FM10S-005-0.5-01_1010090000003.stp',
/* time_stamp */ '2023-07-31T14:23:50+08:00',
/* author */ (''),
/* organization */ (''),
/* preprocessor_version */ 'ST-DEVELOPER v11',
/* originating_system */ 'SIEMENS PLM Software NX 7.5',
/* authorisation */ '');

FILE_SCHEMA (('CONFIG_CONTROL_DESIGN'));
ENDSEC;

DATA;
#10=SHAPE_REPRESENTATION_RELATIONSHIP('None',
'relationship between 5A(3+12)43319-None and 5A(3+12)43319-None',#94,#11);
#11=ADVANCED_BREP_SHAPE_REPRESENTATION('5A(3+12)43319-None',(#95),#479);
#12=CC_DESIGN_APPROVAL(#24,(#82));
#13=CC_DESIGN_APPROVAL(#25,(#84));
#14=CC_DESIGN_APPROVAL(#26,(#31));
#15=APPROVAL_PERSON_ORGANIZATION(#69,#24,#18);
#16=APPROVAL_PERSON_ORGANIZATION(#70,#25,#19);
#17=APPROVAL_PERSON_ORGANIZATION(#71,#26,#20);
#18=APPROVAL_ROLE('approver');
#19=APPROVAL_ROLE('approver');
#20=APPROVAL_ROLE('approver');
#21=APPROVAL_DATE_TIME(#39,#24);
#22=APPROVAL_DATE_TIME(#40,#25);
#23=APPROVAL_DATE_TIME(#41,#26);
#24=APPROVAL(#27,'');
#25=APPROVAL(#28,'');
#26=APPROVAL(#29,'');
#27=APPROVAL_STATUS('not_yet_approved');
#28=APPROVAL_STATUS('not_yet_approved');
#29=APPROVAL_STATUS('not_yet_approved');
#30=CC_DESIGN_SECURITY_CLASSIFICATION(#31,(#84));
#31=SECURITY_CLASSIFICATION(' ',' ',#32);
#32=SECURITY_CLASSIFICATION_LEVEL('unclassified');
#33=CC_DESIGN_DATE_AND_TIME_ASSIGNMENT(#37,#35,(#82));
#34=CC_DESIGN_DATE_AND_TIME_ASSIGNMENT(#38,#36,(#31));
#35=DATE_TIME_ROLE('creation_date');
#36=DATE_TIME_ROLE('classification_date');
#37=DATE_AND_TIME(#52,#42);
#38=DATE_AND_TIME(#53,#43);
#39=DATE_AND_TIME(#54,#44);
#40=DATE_AND_TIME(#55,#45);
#41=DATE_AND_TIME(#56,#46);
#42=LOCAL_TIME(14,5,0.,#47);
#43=LOCAL_TIME(14,5,0.,#48);
#44=LOCAL_TIME(14,5,0.,#49);
#45=LOCAL_TIME(14,5,0.,#50);
#46=LOCAL_TIME(14,5,0.,#51);
#47=COORDINATED_UNIVERSAL_TIME_OFFSET(8,0,.AHEAD.);
#48=COORDINATED_UNIVERSAL_TIME_OFFSET(8,0,.AHEAD.);
#49=COORDINATED_UNIVERSAL_TIME_OFFSET(8,0,.AHEAD.);
#50=COORDINATED_UNIVERSAL_TIME_OFFSET(8,0,.AHEAD.);
#51=COORDINATED_UNIVERSAL_TIME_OFFSET(8,0,.AHEAD.);
#52=CALENDAR_DATE(2023,31,7);
#53=CALENDAR_DATE(2023,31,7);
#54=CALENDAR_DATE(2023,31,7);
#55=CALENDAR_DATE(2023,31,7);
#56=CALENDAR_DATE(2023,31,7);
#57=CC_DESIGN_PERSON_AND_ORGANIZATION_ASSIGNMENT(#65,#61,(#82,#84));
#58=CC_DESIGN_PERSON_AND_ORGANIZATION_ASSIGNMENT(#66,#62,(#86));
#59=CC_DESIGN_PERSON_AND_ORGANIZATION_ASSIGNMENT(#67,#63,(#84));
#60=CC_DESIGN_PERSON_AND_ORGANIZATION_ASSIGNMENT(#68,#64,(#31));
#61=PERSON_AND_ORGANIZATION_ROLE('creator');
#62=PERSON_AND_ORGANIZATION_ROLE('design_owner');
#63=PERSON_AND_ORGANIZATION_ROLE('design_supplier');
#64=PERSON_AND_ORGANIZATION_ROLE('classification_officer');
#65=PERSON_AND_ORGANIZATION(#79,#72);
#66=PERSON_AND_ORGANIZATION(#79,#73);
#67=PERSON_AND_ORGANIZATION(#79,#74);
#68=PERSON_AND_ORGANIZATION(#79,#75);
#69=PERSON_AND_ORGANIZATION(#79,#76);
#70=PERSON_AND_ORGANIZATION(#79,#77);
#71=PERSON_AND_ORGANIZATION(#79,#78);
#72=ORGANIZATION('','',' ');
#73=ORGANIZATION('','',' ');
#74=ORGANIZATION('','',' ');
#75=ORGANIZATION('','',' ');
#76=ORGANIZATION('','',' ');
#77=ORGANIZATION('','',' ');
#78=ORGANIZATION('','',' ');
#79=PERSON('','','',(' '),$,$);
#80=SHAPE_DEFINITION_REPRESENTATION(#81,#94);
#81=PRODUCT_DEFINITION_SHAPE('NONE','NONE',#82);
#82=PRODUCT_DEFINITION('','',#84,#83);
#83=DESIGN_CONTEXT('detailed design',#93,'design');
#84=PRODUCT_DEFINITION_FORMATION_WITH_SPECIFIED_SOURCE('','',#86,.NOT_KNOWN.);
#85=PRODUCT_RELATED_PRODUCT_CATEGORY('detail','',(#86));
#86=PRODUCT('5A(3+12)','5A(3+12)','',(#91));
#87=PRODUCT_CATEGORY_RELATIONSHIP(' ',' ',#89,#90);
#88=PRODUCT_CATEGORY_RELATIONSHIP('','',#90,#85);
#89=PRODUCT_CATEGORY('part',' ');
#90=PRODUCT_CATEGORY(' ','');
#91=MECHANICAL_CONTEXT('NONE',#93,'mechanical');
#92=APPLICATION_PROTOCOL_DEFINITION('international standard',
'config_control_design',1994,#93);
#93=APPLICATION_CONTEXT(
'configuration controlled 3D designs of mechanical parts and assemblies');
#94=SHAPE_REPRESENTATION('5A(3+12)43319-None',(#243),#479);
#95=MANIFOLD_SOLID_BREP('-1',#96);
#96=CLOSED_SHELL('',(#117,#118,#119,#120,#121,#122,#123,#124,#125,#126,#127,
#128,#129));
#97=PLANE('',#266);
#98=PLANE('',#267);
#99=VERTEX_LOOP('',#222);
#100=SPHERICAL_SURFACE('',#252,0.5);
#101=FACE_OUTER_BOUND('',#168,.T.);
#102=CONICAL_SURFACE('',#247,0.6,45.);
#103=CONICAL_SURFACE('',#250,1.05,45.0000000000004);
#104=CONICAL_SURFACE('',#254,0.6,59.0000000000001);
#105=CONICAL_SURFACE('',#259,0.75,45.0000000000002);
#106=CIRCLE('',#245,0.800000000000004);
#107=CIRCLE('',#246,0.6);
#108=CIRCLE('',#248,1.05);
#109=CIRCLE('',#249,0.5);
#110=CIRCLE('',#251,0.5);
#111=CIRCLE('',#253,0.6);
#112=CIRCLE('',#255,0.85);
#113=CIRCLE('',#256,0.85);
#114=CIRCLE('',#258,0.75);
#115=CIRCLE('',#260,1.05);
#116=CIRCLE('',#264,0.75);
#117=ADVANCED_FACE('',(#136,#137),#130,.F.);
#118=ADVANCED_FACE('',(#138,#139),#102,.F.);
#119=ADVANCED_FACE('',(#140,#141),#103,.T.);
#120=ADVANCED_FACE('',(#101),#100,.T.);
#121=ADVANCED_FACE('',(#142,#143),#104,.F.);
#122=ADVANCED_FACE('',(#144,#145),#131,.T.);
#123=ADVANCED_FACE('',(#146,#147),#105,.T.);
#124=ADVANCED_FACE('',(#148,#149),#132,.T.);
#125=ADVANCED_FACE('',(#150,#151),#133,.T.);
#126=ADVANCED_FACE('',(#152,#153,#154),#134,.F.);
#127=ADVANCED_FACE('',(#155,#156,#157),#135,.T.);
#128=ADVANCED_FACE('',(#158,#159),#97,.F.);
#129=ADVANCED_FACE('',(#160,#161),#98,.F.);
#130=CYLINDRICAL_SURFACE('',#244,0.3);
#131=CYLINDRICAL_SURFACE('',#257,0.85);
#132=CYLINDRICAL_SURFACE('',#261,1.05);
#133=CYLINDRICAL_SURFACE('',#262,0.5);
#134=CYLINDRICAL_SURFACE('',#263,0.6);
#135=CYLINDRICAL_SURFACE('',#265,0.75);
#136=FACE_BOUND('',#162,.T.);
#137=FACE_BOUND('',#163,.T.);
#138=FACE_BOUND('',#164,.T.);
#139=FACE_BOUND('',#165,.T.);
#140=FACE_BOUND('',#166,.T.);
#141=FACE_BOUND('',#167,.T.);
#142=FACE_BOUND('',#169,.T.);
#143=FACE_BOUND('',#99,.T.);
#144=FACE_BOUND('',#170,.T.);
#145=FACE_BOUND('',#171,.T.);
#146=FACE_BOUND('',#172,.T.);
#147=FACE_BOUND('',#173,.T.);
#148=FACE_BOUND('',#174,.T.);
#149=FACE_BOUND('',#175,.T.);
#150=FACE_BOUND('',#176,.T.);
#151=FACE_BOUND('',#177,.T.);
#152=FACE_BOUND('',#178,.T.);
#153=FACE_BOUND('',#179,.T.);
#154=FACE_BOUND('',#180,.T.);
#155=FACE_BOUND('',#181,.T.);
#156=FACE_BOUND('',#182,.T.);
#157=FACE_BOUND('',#183,.T.);
#158=FACE_BOUND('',#184,.T.);
#159=FACE_BOUND('',#185,.T.);
#160=FACE_BOUND('',#186,.T.);
#161=FACE_BOUND('',#187,.T.);
#162=EDGE_LOOP('',(#188));
#163=EDGE_LOOP('',(#189));
#164=EDGE_LOOP('',(#190));
#165=EDGE_LOOP('',(#191));
#166=EDGE_LOOP('',(#192));
#167=EDGE_LOOP('',(#193));
#168=EDGE_LOOP('',(#194));
#169=EDGE_LOOP('',(#195));
#170=EDGE_LOOP('',(#196));
#171=EDGE_LOOP('',(#197));
#172=EDGE_LOOP('',(#198));
#173=EDGE_LOOP('',(#199));
#174=EDGE_LOOP('',(#200));
#175=EDGE_LOOP('',(#201));
#176=EDGE_LOOP('',(#202));
#177=EDGE_LOOP('',(#203));
#178=EDGE_LOOP('',(#204));
#179=EDGE_LOOP('',(#205));
#180=EDGE_LOOP('',(#206));
#181=EDGE_LOOP('',(#207));
#182=EDGE_LOOP('',(#208));
#183=EDGE_LOOP('',(#209));
#184=EDGE_LOOP('',(#210));
#185=EDGE_LOOP('',(#211));
#186=EDGE_LOOP('',(#212));
#187=EDGE_LOOP('',(#213));
#188=ORIENTED_EDGE('',*,*,#228,.T.);
#189=ORIENTED_EDGE('',*,*,#229,.T.);
#190=ORIENTED_EDGE('',*,*,#230,.F.);
#191=ORIENTED_EDGE('',*,*,#231,.F.);
#192=ORIENTED_EDGE('',*,*,#232,.F.);
#193=ORIENTED_EDGE('',*,*,#233,.F.);
#194=ORIENTED_EDGE('',*,*,#234,.F.);
#195=ORIENTED_EDGE('',*,*,#235,.T.);
#196=ORIENTED_EDGE('',*,*,#236,.F.);
#197=ORIENTED_EDGE('',*,*,#237,.T.);
#198=ORIENTED_EDGE('',*,*,#237,.F.);
#199=ORIENTED_EDGE('',*,*,#238,.T.);
#200=ORIENTED_EDGE('',*,*,#239,.F.);
#201=ORIENTED_EDGE('',*,*,#232,.T.);
#202=ORIENTED_EDGE('',*,*,#233,.T.);
#203=ORIENTED_EDGE('',*,*,#234,.T.);
#204=ORIENTED_EDGE('',*,*,#231,.T.);
#205=ORIENTED_EDGE('',*,*,#235,.F.);
#206=ORIENTED_EDGE('',*,*,#228,.F.);
#207=ORIENTED_EDGE('',*,*,#238,.F.);
#208=ORIENTED_EDGE('',*,*,#229,.F.);
#209=ORIENTED_EDGE('',*,*,#240,.T.);
#210=ORIENTED_EDGE('',*,*,#240,.F.);
#211=ORIENTED_EDGE('',*,*,#239,.T.);
#212=ORIENTED_EDGE('',*,*,#230,.T.);
#213=ORIENTED_EDGE('',*,*,#236,.T.);
#214=VERTEX_POINT('',#380);
#215=VERTEX_POINT('',#442);
#216=VERTEX_POINT('',#445);
#217=VERTEX_POINT('',#447);
#218=VERTEX_POINT('',#450);
#219=VERTEX_POINT('',#452);
#220=VERTEX_POINT('',#455);
#221=VERTEX_POINT('',#458);
#222=VERTEX_POINT('',#459);
#223=VERTEX_POINT('',#462);
#224=VERTEX_POINT('',#464);
#225=VERTEX_POINT('',#467);
#226=VERTEX_POINT('',#470);
#227=VERTEX_POINT('',#475);
#228=EDGE_CURVE('',#214,#214,#241,.T.);
#229=EDGE_CURVE('',#215,#215,#242,.T.);
#230=EDGE_CURVE('',#216,#216,#106,.T.);
#231=EDGE_CURVE('',#217,#217,#107,.T.);
#232=EDGE_CURVE('',#218,#218,#108,.T.);
#233=EDGE_CURVE('',#219,#219,#109,.T.);
#234=EDGE_CURVE('',#220,#220,#110,.T.);
#235=EDGE_CURVE('',#221,#221,#111,.T.);
#236=EDGE_CURVE('',#223,#223,#112,.T.);
#237=EDGE_CURVE('',#224,#224,#113,.T.);
#238=EDGE_CURVE('',#225,#225,#114,.T.);
#239=EDGE_CURVE('',#226,#226,#115,.T.);
#240=EDGE_CURVE('',#227,#227,#116,.T.);
#241=B_SPLINE_CURVE_WITH_KNOTS('',3,(#319,#320,#321,#322,#323,#324,#325,
#326,#327,#328,#329,#330,#331,#332,#333,#334,#335,#336,#337,#338,#339,#340,
#341,#342,#343,#344,#345,#346,#347,#348,#349,#350,#351,#352,#353,#354,#355,
#356,#357,#358,#359,#360,#361,#362,#363,#364,#365,#366,#367,#368,#369,#370,
#371,#372,#373,#374,#375,#376,#377,#378,#379),.UNSPECIFIED.,.T.,.F.,(1,3,
3,3,3,3,3,3,3,3,3,3,3,3,3,3,3,3,3,3,3,3,1),(-0.0349573499377714,0.,0.049024650955324,
0.097766678663973,0.150585508496867,0.207095947122786,0.259521826052871,
0.307259505594801,0.355631289232811,0.40865914108533,0.46518334197935,0.500163571533411,
0.549156156832446,0.597866303740753,0.650650586251247,0.707124062974741,
0.759515651597656,0.807222107253849,0.855562252257623,0.908555420072011,
0.965042650062229,1.,1.04902465095532),.UNSPECIFIED.);
#242=B_SPLINE_CURVE_WITH_KNOTS('',3,(#381,#382,#383,#384,#385,#386,#387,
#388,#389,#390,#391,#392,#393,#394,#395,#396,#397,#398,#399,#400,#401,#402,
#403,#404,#405,#406,#407,#408,#409,#410,#411,#412,#413,#414,#415,#416,#417,
#418,#419,#420,#421,#422,#423,#424,#425,#426,#427,#428,#429,#430,#431,#432,
#433,#434,#435,#436,#437,#438,#439,#440,#441),.UNSPECIFIED.,.T.,.F.,(1,3,
3,3,3,3,3,3,3,3,3,3,3,3,3,3,3,3,3,3,3,3,1),(-0.0283795033175966,0.,0.0507436368036994,
0.101306836522672,0.154526297618622,0.209925996528478,0.262601001134219,
0.312231892195216,0.362598972610257,0.416341518068299,0.471674455328978,
0.500060869243445,0.550792152643901,0.601343042886559,0.654549547846435,
0.709935759847128,0.762597940863279,0.81221674941602,0.862571568099468,0.916301030077942,
0.971620496682403,1.,1.0507436368037),.UNSPECIFIED.);
#243=AXIS2_PLACEMENT_3D('',#318,#268,#269);
#244=AXIS2_PLACEMENT_3D('',#443,#270,#271);
#245=AXIS2_PLACEMENT_3D('',#444,#272,#273);
#246=AXIS2_PLACEMENT_3D('',#446,#274,#275);
#247=AXIS2_PLACEMENT_3D('',#448,#276,#277);
#248=AXIS2_PLACEMENT_3D('',#449,#278,#279);
#249=AXIS2_PLACEMENT_3D('',#451,#280,#281);
#250=AXIS2_PLACEMENT_3D('',#453,#282,#283);
#251=AXIS2_PLACEMENT_3D('',#454,#284,#285);
#252=AXIS2_PLACEMENT_3D('',#456,#286,#287);
#253=AXIS2_PLACEMENT_3D('',#457,#288,#289);
#254=AXIS2_PLACEMENT_3D('',#460,#290,#291);
#255=AXIS2_PLACEMENT_3D('',#461,#292,#293);
#256=AXIS2_PLACEMENT_3D('',#463,#294,#295);
#257=AXIS2_PLACEMENT_3D('',#465,#296,#297);
#258=AXIS2_PLACEMENT_3D('',#466,#298,#299);
#259=AXIS2_PLACEMENT_3D('',#468,#300,#301);
#260=AXIS2_PLACEMENT_3D('',#469,#302,#303);
#261=AXIS2_PLACEMENT_3D('',#471,#304,#305);
#262=AXIS2_PLACEMENT_3D('',#472,#306,#307);
#263=AXIS2_PLACEMENT_3D('',#473,#308,#309);
#264=AXIS2_PLACEMENT_3D('',#474,#310,#311);
#265=AXIS2_PLACEMENT_3D('',#476,#312,#313);
#266=AXIS2_PLACEMENT_3D('',#477,#314,#315);
#267=AXIS2_PLACEMENT_3D('',#478,#316,#317);
#268=DIRECTION('',(0.,0.,1.));
#269=DIRECTION('',(1.,0.,0.));
#270=DIRECTION('',(-1.,0.,0.));
#271=DIRECTION('',(0.,0.,-1.));
#272=DIRECTION('',(0.,1.,0.));
#273=DIRECTION('',(0.,0.,1.));
#274=DIRECTION('',(0.,-1.,0.));
#275=DIRECTION('',(0.,0.,1.));
#276=DIRECTION('',(0.,-1.,0.));
#277=DIRECTION('',(0.,7.97494302367911E-017,1.));
#278=DIRECTION('',(0.,-1.,0.));
#279=DIRECTION('',(0.,0.,-1.));
#280=DIRECTION('',(0.,1.,0.));
#281=DIRECTION('',(0.,0.,-1.));
#282=DIRECTION('',(0.,-1.,0.));
#283=DIRECTION('',(0.,-6.93161570741435E-018,1.));
#284=DIRECTION('',(0.,-1.,0.));
#285=DIRECTION('',(0.,0.,-1.));
#286=DIRECTION('',(1.,0.,6.12323399573677E-017));
#287=DIRECTION('',(0.,0.,1.));
#288=DIRECTION('',(0.,-1.,0.));
#289=DIRECTION('',(0.,0.,-1.));
#290=DIRECTION('',(0.,-1.,0.));
#291=DIRECTION('',(0.,-2.08390276217192E-018,1.));
#292=DIRECTION('',(0.,-1.,0.));
#293=DIRECTION('',(0.,0.,-1.));
#294=DIRECTION('',(0.,-1.,0.));
#295=DIRECTION('',(0.,0.,-1.));
#296=DIRECTION('',(0.,-1.,0.));
#297=DIRECTION('',(0.,0.,1.));
#298=DIRECTION('',(0.,-1.,0.));
#299=DIRECTION('',(0.,0.,-1.));
#300=DIRECTION('',(0.,-1.,0.));
#301=DIRECTION('',(0.,1.00538557688388E-016,1.));
#302=DIRECTION('',(0.,-1.,0.));
#303=DIRECTION('',(0.,0.,-1.));
#304=DIRECTION('',(0.,-1.,0.));
#305=DIRECTION('',(0.,0.,1.));
#306=DIRECTION('',(0.,-1.,0.));
#307=DIRECTION('',(0.,0.,1.));
#308=DIRECTION('',(0.,-1.,0.));
#309=DIRECTION('',(0.,0.,1.));
#310=DIRECTION('',(0.,-1.,0.));
#311=DIRECTION('',(0.,0.,-1.));
#312=DIRECTION('',(0.,-1.,0.));
#313=DIRECTION('',(0.,0.,1.));
#314=DIRECTION('',(0.,1.,0.));
#315=DIRECTION('',(0.,0.,-1.));
#316=DIRECTION('',(0.,1.,0.));
#317=DIRECTION('',(0.,0.,-1.));
#318=CARTESIAN_POINT('',(0.,0.,0.));
#319=CARTESIAN_POINT('',(0.519615242270663,-10.499999999981,-0.3));
#320=CARTESIAN_POINT('',(0.519615242269521,-10.5311581205708,-0.300000000001978));
#321=CARTESIAN_POINT('',(0.522595667076821,-10.5627390061585,-0.294972253690947));
#322=CARTESIAN_POINT('',(0.527696170720295,-10.5919959161749,-0.285546408499805));
#323=CARTESIAN_POINT('',(0.532779689982835,-10.62115540238,-0.276151950825766));
#324=CARTESIAN_POINT('',(0.540004300773023,-10.648817043776,-0.26221660578725));
#325=CARTESIAN_POINT('',(0.547770430441115,-10.6733564087816,-0.244841899058057));
#326=CARTESIAN_POINT('',(0.556178473729403,-10.6999240881859,-0.226031076609317));
#327=CARTESIAN_POINT('',(0.565398829617166,-10.7235567523201,-0.202699058119162));
#328=CARTESIAN_POINT('',(0.573513886719484,-10.742730670209,-0.176300373623854));
#329=CARTESIAN_POINT('',(0.582166329415401,-10.7631743003274,-0.148153547056484));
#330=CARTESIAN_POINT('',(0.589771726434212,-10.7791087838216,-0.115591544073485));
#331=CARTESIAN_POINT('',(0.59445492568057,-10.788750166521,-0.0813839132390916));
#332=CARTESIAN_POINT('',(0.598801628270331,-10.7976987977758,-0.0496341648906554));
#333=CARTESIAN_POINT('',(0.600719012975611,-10.8014402543528,-0.0154864445915231));
#334=CARTESIAN_POINT('',(0.599738485274226,-10.7994766280013,0.0177129692874209));
#335=CARTESIAN_POINT('',(0.598842705835163,-10.7976827203848,0.0480429153967392));
#336=CARTESIAN_POINT('',(0.595537336676203,-10.7911224242165,0.0783973875853781));
#337=CARTESIAN_POINT('',(0.59048660460599,-10.7804896258672,0.106421660299441));
#338=CARTESIAN_POINT('',(0.585362300814961,-10.7697019443721,0.134854149869894));
#339=CARTESIAN_POINT('',(0.578351493359663,-10.7545040232355,0.161618592462695));
#340=CARTESIAN_POINT('',(0.570724452525331,-10.736064399498,0.185131302835748));
#341=CARTESIAN_POINT('',(0.562373398206455,-10.7158743542633,0.210876008518387));
#342=CARTESIAN_POINT('',(0.553088104991969,-10.6912869183802,0.233412595895452));
#343=CARTESIAN_POINT('',(0.544839296626779,-10.663859266289,0.251296917711373));
#344=CARTESIAN_POINT('',(0.536077550298917,-10.6347260728199,0.270293345323659));
#345=CARTESIAN_POINT('',(0.528295964421796,-10.6013969998896,0.284579524432102));
#346=CARTESIAN_POINT('',(0.523878033930518,-10.566694785665,0.292492402576708));
#347=CARTESIAN_POINT('',(0.521116730829635,-10.5450051434366,0.297438124335061));
#348=CARTESIAN_POINT('',(0.519615242270663,-10.5224170814006,0.3));
#349=CARTESIAN_POINT('',(0.519615242270663,-10.5,0.3));
#350=CARTESIAN_POINT('',(0.519615242270663,-10.4688418794095,0.3));
#351=CARTESIAN_POINT('',(0.522595667079232,-10.4372609938216,0.294972253686764));
#352=CARTESIAN_POINT('',(0.527696170723733,-10.4080040838054,0.285546408493452));
#353=CARTESIAN_POINT('',(0.532779689987294,-10.3788445976005,0.276151950817256));
#354=CARTESIAN_POINT('',(0.540004300778286,-10.3511829562051,0.262216605776564));
#355=CARTESIAN_POINT('',(0.547770430446839,-10.3266435912003,0.244841899045251));
#356=CARTESIAN_POINT('',(0.556178473735692,-10.3000759117967,0.226031076594067));
#357=CARTESIAN_POINT('',(0.565398829623656,-10.2764432476636,0.202699058101368));
#358=CARTESIAN_POINT('',(0.573513886725706,-10.2572693297763,0.176300373603615));
#359=CARTESIAN_POINT('',(0.582166329421071,-10.2368256996602,0.148153547034504));
#360=CARTESIAN_POINT('',(0.589771726438854,-10.2208912161687,0.115591544050009));
#361=CARTESIAN_POINT('',(0.594454925683906,-10.2112498334722,0.0813839132147225));
#362=CARTESIAN_POINT('',(0.598801628272347,-10.2023012022203,0.0496341648662451));
#363=CARTESIAN_POINT('',(0.600719012976167,-10.1985597456461,0.015486444567703));
#364=CARTESIAN_POINT('',(0.599738485273555,-10.2005233720001,-0.0177129693101492));
#365=CARTESIAN_POINT('',(0.598842705833356,-10.2023172796188,-0.0480429154189732));
#366=CARTESIAN_POINT('',(0.595537336673354,-10.2088775757893,-0.0783973876066443));
#367=CARTESIAN_POINT('',(0.590486604602372,-10.2195103741404,-0.106421660319516));
#368=CARTESIAN_POINT('',(0.585362300810426,-10.2302980556377,-0.134854149889519));
#369=CARTESIAN_POINT('',(0.578351493354371,-10.2454959767764,-0.161618592481498));
#370=CARTESIAN_POINT('',(0.570724452519581,-10.2639356005159,-0.185131302853472));
#371=CARTESIAN_POINT('',(0.562373398200141,-10.2841256457529,-0.210876008535126));
#372=CARTESIAN_POINT('',(0.553088104985417,-10.3087130816384,-0.23341259591083));
#373=CARTESIAN_POINT('',(0.544839296620511,-10.3361407337319,-0.251296917724962));
#374=CARTESIAN_POINT('',(0.53607755029316,-10.3652739272026,-0.270293345334896));
#375=CARTESIAN_POINT('',(0.528295964417124,-10.3986030001343,-0.284579524440671));
#376=CARTESIAN_POINT('',(0.523878033927356,-10.4333052143598,-0.292492402582371));
#377=CARTESIAN_POINT('',(0.521116730829238,-10.4549948565745,-0.297438124335647));
#378=CARTESIAN_POINT('',(0.519615242271485,-10.4775829185951,-0.299999999998577));
#379=CARTESIAN_POINT('',(0.519615242270663,-10.499999999981,-0.3));
#380=CARTESIAN_POINT('',(0.519615242270663,-10.499999999981,-0.3));
#381=CARTESIAN_POINT('',(0.687386354243376,-10.5,0.3));
#382=CARTESIAN_POINT('',(0.687386354243376,-10.532048724888,0.3));
#383=CARTESIAN_POINT('',(0.68976233551979,-10.5645343120275,0.294695612988632));
#384=CARTESIAN_POINT('',(0.693878039996969,-10.5946928423379,0.28466342513566));
#385=CARTESIAN_POINT('',(0.697985345142255,-10.6247898251036,0.274651710977008));
#386=CARTESIAN_POINT('',(0.703872032713119,-10.6533957410411,0.259716301903324));
#387=CARTESIAN_POINT('',(0.710206218032371,-10.6785857556801,0.241054201100407));
#388=CARTESIAN_POINT('',(0.716868717489184,-10.7050814217194,0.221424804391014));
#389=CARTESIAN_POINT('',(0.724164647640834,-10.7285268323165,0.197147392887513));
#390=CARTESIAN_POINT('',(0.730498273938153,-10.747240223723,0.169918426821163));
#391=CARTESIAN_POINT('',(0.737077093167447,-10.7666780644562,0.141635348985185));
#392=CARTESIAN_POINT('',(0.742764814046662,-10.7815400712637,0.10929132658558));
#393=CARTESIAN_POINT('',(0.746176149958855,-10.7903081927322,0.0756383053259403));
#394=CARTESIAN_POINT('',(0.749420882473374,-10.798648095208,0.043628835985015));
#395=CARTESIAN_POINT('',(0.750671547788647,-10.8016844845163,0.00949055839615117));
#396=CARTESIAN_POINT('',(0.749627759818242,-10.7990681833464,-0.0236267160198745));
#397=CARTESIAN_POINT('',(0.748642190852689,-10.7965978107126,-0.0548968195405182));
#398=CARTESIAN_POINT('',(0.745607541535071,-10.7890539227467,-0.0860985413613229));
#399=CARTESIAN_POINT('',(0.741161826573672,-10.7771657503553,-0.114800465286419));
#400=CARTESIAN_POINT('',(0.736646692842229,-10.7650919470108,-0.143950562851541));
#401=CARTESIAN_POINT('',(0.730591494267518,-10.748264255851,-0.171289003921293));
#402=CARTESIAN_POINT('',(0.724201834632313,-10.7279655616202,-0.195017185691909));
#403=CARTESIAN_POINT('',(0.717392088395219,-10.7063323347273,-0.220305370939721));
#404=CARTESIAN_POINT('',(0.710048171087862,-10.680170877226,-0.242185617436379));
#405=CARTESIAN_POINT('',(0.703847915502211,-10.6513336980213,-0.259033032339879));
#406=CARTESIAN_POINT('',(0.697478009147734,-10.6217074788239,-0.276341424513043));
#407=CARTESIAN_POINT('',(0.692196430722524,-10.5883175451321,-0.288809056795943));
#408=CARTESIAN_POINT('',(0.689511482866568,-10.5540932990753,-0.295082895124651));
#409=CARTESIAN_POINT('',(0.688117437779623,-10.5363238135473,-0.298340319092504));
#410=CARTESIAN_POINT('',(0.687386354243376,-10.5181192932683,-0.3));
#411=CARTESIAN_POINT('',(0.687386354243376,-10.5,-0.3));
#412=CARTESIAN_POINT('',(0.687386354243376,-10.467951275112,-0.3));
#413=CARTESIAN_POINT('',(0.68976233551979,-10.4354656879725,-0.294695612988632));
#414=CARTESIAN_POINT('',(0.693878039996969,-10.4053071576621,-0.28466342513566));
#415=CARTESIAN_POINT('',(0.697985345142255,-10.3752101748964,-0.274651710977008));
#416=CARTESIAN_POINT('',(0.703872032713119,-10.3466042589589,-0.259716301903324));
#417=CARTESIAN_POINT('',(0.710206218032371,-10.3214142443199,-0.241054201100407));
#418=CARTESIAN_POINT('',(0.716868717489184,-10.2949185782806,-0.221424804391014));
#419=CARTESIAN_POINT('',(0.724164647640834,-10.2714731676835,-0.197147392887513));
#420=CARTESIAN_POINT('',(0.730498273938153,-10.252759776277,-0.169918426821163));
#421=CARTESIAN_POINT('',(0.737077093167447,-10.2333219355438,-0.141635348985185));
#422=CARTESIAN_POINT('',(0.742764814046662,-10.2184599287363,-0.10929132658558));
#423=CARTESIAN_POINT('',(0.746176149958855,-10.2096918072678,-0.0756383053259403));
#424=CARTESIAN_POINT('',(0.749420882473374,-10.201351904792,-0.043628835985015));
#425=CARTESIAN_POINT('',(0.750671547788647,-10.1983155154837,-0.00949055839615117));
#426=CARTESIAN_POINT('',(0.749627759818242,-10.2009318166536,0.0236267160198745));
#427=CARTESIAN_POINT('',(0.748642190852689,-10.2034021892874,0.0548968195405182));
#428=CARTESIAN_POINT('',(0.745607541535071,-10.2109460772533,0.0860985413613229));
#429=CARTESIAN_POINT('',(0.741161826573672,-10.2228342496447,0.114800465286419));
#430=CARTESIAN_POINT('',(0.736646692842229,-10.2349080529892,0.143950562851541));
#431=CARTESIAN_POINT('',(0.730591494267518,-10.251735744149,0.171289003921293));
#432=CARTESIAN_POINT('',(0.724201834632313,-10.2720344383798,0.195017185691909));
#433=CARTESIAN_POINT('',(0.717392088395219,-10.2936676652727,0.220305370939721));
#434=CARTESIAN_POINT('',(0.710048171087862,-10.319829122774,0.242185617436379));
#435=CARTESIAN_POINT('',(0.703847915502211,-10.3486663019787,0.259033032339879));
#436=CARTESIAN_POINT('',(0.697478009147734,-10.3782925211761,0.276341424513043));
#437=CARTESIAN_POINT('',(0.692196430722524,-10.4116824548678,0.288809056795943));
#438=CARTESIAN_POINT('',(0.689511482866568,-10.4459067009247,0.295082895124651));
#439=CARTESIAN_POINT('',(0.688117437779623,-10.4636761864527,0.298340319092504));
#440=CARTESIAN_POINT('',(0.687386354243376,-10.4818807067317,0.3));
#441=CARTESIAN_POINT('',(0.687386354243376,-10.5,0.3));
#442=CARTESIAN_POINT('',(0.687386354243376,-10.5,0.3));
#443=CARTESIAN_POINT('',(10.,-10.5,0.));
#444=CARTESIAN_POINT('',(0.,-15.1,0.));
#445=CARTESIAN_POINT('',(0.,-15.1,0.800000000000004));
#446=CARTESIAN_POINT('',(0.,-14.9,0.));
#447=CARTESIAN_POINT('',(0.,-14.9,0.6));
#448=CARTESIAN_POINT('',(0.,-14.9,0.));
#449=CARTESIAN_POINT('',(0.,-8.,0.));
#450=CARTESIAN_POINT('',(0.,-8.,-1.05));
#451=CARTESIAN_POINT('',(0.,-7.45,0.));
#452=CARTESIAN_POINT('',(0.,-7.45,-0.5));
#453=CARTESIAN_POINT('',(0.,-8.,0.));
#454=CARTESIAN_POINT('',(0.,-0.5,0.));
#455=CARTESIAN_POINT('',(0.,-0.5,-0.5));
#456=CARTESIAN_POINT('',(0.,-0.5,0.));
#457=CARTESIAN_POINT('',(0.,-10.1,0.));
#458=CARTESIAN_POINT('',(0.,-10.1,-0.6));
#459=CARTESIAN_POINT('',(0.,-9.73948362858346,3.62365226518833E-019));
#460=CARTESIAN_POINT('',(0.,-10.1,0.));
#461=CARTESIAN_POINT('',(0.,-15.1,0.));
#462=CARTESIAN_POINT('',(0.,-15.1,-0.85));
#463=CARTESIAN_POINT('',(0.,-11.1,0.));
#464=CARTESIAN_POINT('',(0.,-11.1,-0.85));
#465=CARTESIAN_POINT('',(0.,0.,0.));
#466=CARTESIAN_POINT('',(0.,-11.,0.));
#467=CARTESIAN_POINT('',(0.,-11.,-0.75));
#468=CARTESIAN_POINT('',(0.,-11.,0.));
#469=CARTESIAN_POINT('',(0.,-10.,0.));
#470=CARTESIAN_POINT('',(0.,-10.,-1.05));
#471=CARTESIAN_POINT('',(0.,0.,0.));
#472=CARTESIAN_POINT('',(0.,0.,0.));
#473=CARTESIAN_POINT('',(0.,0.,0.));
#474=CARTESIAN_POINT('',(0.,-10.,0.));
#475=CARTESIAN_POINT('',(0.,-10.,-0.75));
#476=CARTESIAN_POINT('',(0.,0.,0.));
#477=CARTESIAN_POINT('',(0.,-10.,1.05));
#478=CARTESIAN_POINT('',(0.,-15.1,0.85));
#479=(
GEOMETRIC_REPRESENTATION_CONTEXT(3)
GLOBAL_UNCERTAINTY_ASSIGNED_CONTEXT((#480))
GLOBAL_UNIT_ASSIGNED_CONTEXT((#486,#482,#481))
REPRESENTATION_CONTEXT('FM10S-005-0','TOP_LEVEL_ASSEMBLY_PART')
);
#480=UNCERTAINTY_MEASURE_WITH_UNIT(LENGTH_MEASURE(0.0508),#486,
'DISTANCE_ACCURACY_VALUE','Maximum Tolerance applied to model');
#481=(
NAMED_UNIT(*)
SI_UNIT($,.STERADIAN.)
SOLID_ANGLE_UNIT()
);
#482=(
CONVERSION_BASED_UNIT('DEGREE',#484)
NAMED_UNIT(#483)
PLANE_ANGLE_UNIT()
);
#483=DIMENSIONAL_EXPONENTS(0.,0.,0.,0.,0.,0.,0.);
#484=PLANE_ANGLE_MEASURE_WITH_UNIT(PLANE_ANGLE_MEASURE(0.0174532925),#485);
#485=(
NAMED_UNIT(*)
PLANE_ANGLE_UNIT()
SI_UNIT($,.RADIAN.)
);
#486=(
LENGTH_UNIT()
NAMED_UNIT(*)
SI_UNIT(.MILLI.,.METRE.)
);
ENDSEC;
END-ISO-10303-21;
